Jewel Lyrics Archive
Guitar Tabs

Last Dance Rodeo

Last Dance Rodeo
    by Jewel Kilcher
        Tabbed by Jeff Kokosinski

TUNE TO DADEAE

INTRO
harmonics--------------------------------------
-----(12)---------------------------------------------------------------
---------(12)-----------------------------------------------------------
------------(12)----------------0h2------0------------------------------
----------------(12)--------------------------5-----4--------2----------
-------------------(12)-------------------------------------------------
----------------------(12)----------------------------------------------
(backwards strum, harmonics)
NOTE: one thing to remember about this song is when the above is notaded 5, 4
or 2 or whatever, remember to strike the string next to it open or the next
two to get the full sound Jewel gets.
intro, cont.
------------------------------------------
------------------------------------------
------------0------0--------0------0------
-------4--------4-------4-------4------4--
-------4--------4-------4-------4------4--
-------4--------4-------4-------4------4--

VERSE

-----0-------------------------------------------------------------------
-------0-----------0------0------------0-------0---------0-------0-------
---------0---------0--h---2------------0---h---2---------0----h--2-------
-----------0-------------------------------------------------------------
-------------0-----------------------------------------------------------
---------------0---------------------------------------------------------
You're lungs filled with concrete....

-------------------------------------------------------------------------
-------------------------------------------------------------------------
------------0-------0------0--------0---------0---------0--------0-------
------------5-------4------2-----4--------4--------4--------4---------4--
---------------------------------4--------4--------4--------4---------4--
---------------------------------4--------4--------4--------4---------4--
wrapped around some. . .

this is the basic verse learn this pattern well

PreChorus

------------------------------------------------------------------------
------0--------------0------------0------------0------------------------
------0--------------0------------0------------0------------------------
------0--------------0------------4------------0-------4------4-----4---
----5-------------4-------------------------4----------4------4-----4---
-------------------------------------------------------4------4-----4---
Under the        gas lamp the     air is    thick and  velvetine?(sp)
REPEAT

------------------------------------------------------------------------
------------------------------------------------------------------------
------------------------------------------------------------------------
---2---------------------5-------------7--------------------------------
---2---------------------5-------------7--------------------------------
---2---------------------5-------------7--------------------------------
Youre no longer. . .     bury your...  you know all you need is a 

heart to call home( use intro riff here)

BRIDGE
--------------------------------------------------------------------------
--------------------------------------------------------------------------
---0-----------------0---------------0-------------0----------------------
---4-----------------2---------------4-------------2----------------------
---4-----------------2---------------4-------------2----------2-----------
--------------------------------------------------------------2-----------
dont wander to. . .  one constant... darkness...   except     are

E-mail:



For original Jewel tabs created by Ola Svardh, check out http://surf.to/jeweltab.

For hard copies of Piano Sheet Music and Guitar Tabs,
check out the Jewel Merchandise Page.

Do you have some more Jewel Lyrics that are missing here?
Send them to the webmaster!

If you would like to receive Jewel Tabs on a consistent basis or can contribute more by transcribing them,
feel free to subscribe to the Jewel Lyrics mailing list by sending a blank e-mail to JewelLyrics-subscribe@endor.org

Amazon - Pearl Jam 39/43

I take no credit for these guitar tabs.
This Jewel Guitar Tabs Archive has a Copyright Warning.

List All Songs