Jewel Lyrics Archive
Guitar Tabs

Here When Gone

Here When Gone
    by Jewel Kilcher


Intro:
---------0---------------0--------------0---------------0----------------0---------------0---------
-----1------1--------1------1------1-------1-------1------1--------1--------1-----1---------1----
-2--------------2---------------0--------------0----------------------------------------------------
------------------------------------------------------------------3---------------3-----------------3
------------------------------------------------------------------------------------------------------

----0-----------------
-1----1--------------
----------------------
----------2---0------
----------------------    Then Repeat again

This pattern is used in all three verses.  It is also used as an intro/outro

the chorus is :

C       G         Am                     Am/B Am/C
You are here when gone  you're here when gone

C       G         Am
You are here when gone

        C         G           Am
And you memory is haunting my skin

C       G         Am
You are here when gone, you're here when gone



Then play the intro again as an outro, Thats it =)

luv,
Sebastien (The Original Yodeling Swiss Angel) :P
{\o/}
/_

E-mail:



For original Jewel tabs created by Ola Svardh, check out http://surf.to/jeweltab.

For hard copies of Piano Sheet Music and Guitar Tabs,
check out the Jewel Merchandise Page.

Do you have some more Jewel Lyrics that are missing here?
Send them to the webmaster!

If you would like to receive Jewel Tabs on a consistent basis or can contribute more by transcribing them,
feel free to subscribe to the Jewel Lyrics mailing list by sending a blank e-mail to JewelLyrics-subscribe@endor.org

Amazon - Tracy Chapman 51/57

I take no credit for these guitar tabs.
This Jewel Guitar Tabs Archive has a Copyright Warning.

List All Songs