Jewel Lyrics Archive
Guitar Tabs

Don't

Don't
    by Jewel Kilcher


Intro
   G
E-----------3--------------3--------------3--------------|
B--------3-----3--------3-----3--------3-----3-----------|
G-----0--------------0--------------0--------------------|
D--------------------------------------------------------|
A-----------------2--------------------------------------|
E--3-----------------------------3--------------3--2--0--|

   D              D2             D
E--2--------2-----0--------0----0h2-------2-----3--2--0--|
B--------3-----3--------3-----3--------3-----3-----------|
G-----2--------------2--------------2--------------------|
D--0--------------0--------------0-----------------------|
A--------------------------------------------------------|
E--------------------------------------------------------|
    
   C              C7             C
E--------------------------------------------------------|
B--1--------1-----0--------0----0h1-------1-----3--1--0--|
G--------0-----0--------0-----0--------0-----0-----------|
D-----0--------------0--------------0--------------------|
A--3--------------3--------------3-----------------------|
E--------------------------------------------------------|

   G
E-----------3--------------3--------------3--------------3-----|
B--------3-----3--------3-----3--------3-----3--------3-----3--|
G-----0--------------0--------------0--------------0-----------|
D--------------------------------------------------------------|
A-----------------2-----------------------------2--------------|
E--3-----------------------------3-----------------------------|

Entire song

G-D-C-G-D-C-G-D-G

E-mail:



For original Jewel tabs created by Ola Svardh, check out http://surf.to/jeweltab.

For hard copies of Piano Sheet Music and Guitar Tabs,
check out the Jewel Merchandise Page.

Do you have some more Jewel Lyrics that are missing here?
Send them to the webmaster!

If you would like to receive Jewel Tabs on a consistent basis or can contribute more by transcribing them,
feel free to subscribe to the Jewel Lyrics mailing list by sending a blank e-mail to JewelLyrics-subscribe@endor.org

Amazon - Dave Matthews Band 23/46

I take no credit for these guitar tabs.
This Jewel Guitar Tabs Archive has a Copyright Warning.

List All Songs