Jewel Lyrics Archive
Guitar Tabs

Adrian

Adrian
    by Jewel Kilcher

verse
     Em7         Am7           Em           Am7
e---------0------------3----|--------0-----------0-------|
b--3---------3---1----------|--0--------0---1------------|
g-----0-------------0-----0-|-----0------------0-----0---|
d---------------------------|----------------------------|
a----------------0----------|---------------0------------|
e--0------------------------|--0-------------------------|

chorus
   C                          G
e--------------------------|-------------3-------3-------|
b--------------1-----------|--------0h1-----0------------|
g--------0----------0------|-------------------0----0----|
d-----2-----2----2-----2---|-----0-----------------------|
a--3-----------------------|-----------------------------|
e--------------------------|--3-------------3------------|

 C    G
|////|////| C | G |

e-----------3--|        |            |
b--------1-----|        |            |
g-----0--------|        |      %     |
d--------------|        |            |
a--------------|        |            |
e--0-----------|        |            |


Bridge

Bm7   Em   Am   Bm   Am   Bm   F#   F#
|////|////|////|////|////|////|////|///  |

E-mail:



For original Jewel tabs created by Ola Svardh, check out http://surf.to/jeweltab.

For hard copies of Piano Sheet Music and Guitar Tabs,
check out the Jewel Merchandise Page.

Do you have some more Jewel Lyrics that are missing here?
Send them to the webmaster!

If you would like to receive Jewel Tabs on a consistent basis or can contribute more by transcribing them,
feel free to subscribe to the Jewel Lyrics mailing list by sending a blank e-mail to JewelLyrics-subscribe@endor.org

TicketsNow 55/57

I take no credit for these guitar tabs.
This Jewel Guitar Tabs Archive has a Copyright Warning.

List All Songs