Jewel Lyrics Archive
Guitar Tabs

You Were Meant For Me

You Were Meant For Me
    by Jewel Kilcher
       Transcribed by Chris (CleoCrazy@aol.com)




        --------0-----------0-----------0-----------0---------
        ------3---*3------3---*3------1---*1------0---*0------
        ----0-----------0-----------0-----------0-------------
Part A  --2-----------0-----------2-----------2---------------
        3-----------2-----------3-----------2-----------------
        ------------------------------------------------------


        --------0-----------0-----------0---------2-----------
        ------3---*3------3---*3------1---*1----3---3---------
        ----0-----------0-----------0---------2-------*2------
Part B  --2-----------0-----------2---------0-----------------
        3-----------2-----------3-----------------------------
        ------------------------------------------------------



Chords for Chorus
 
  C   D   G   G/?  Em   (x2)
  C   D   Em  [pick harmonics at fret 7 (5-4-3-2-1-2)]

Bridge

  Am  D   Bm  ?
  C-G-Am  D   Bm  Em    [quick change from C to G to Am]

End

  C   D   (Part A)

The G/? Chord

    ---------------
    |  |  |  |  |  |
    ---------------
    *  *  |  |  |  |
    ---------------
    |  |  |  |  *  *
    ---------------
    |  |  |  |  |  |

    1  2  0  0  3  4

Arrangement
  
  Intro    Part A (x2)
  Verse    Part A, Part B  (x2)
  Chorus
  Verse    Part A, Part B  (x2)
  Chorus
  Bridge
  Pause    Part A (x2)
  Verse    Part A, Part B  (x2)
  Chorus
  End
 
The ? in the Bridge part is a chord I'm not sure of. Also, the asterisks before
the notes in Parts A & B are probably picked, but I'm not quite sure. It's
hard to tell

E-mail:



For original Jewel tabs created by Ola Svardh, check out http://surf.to/jeweltab.

For hard copies of Piano Sheet Music and Guitar Tabs,
check out the Jewel Merchandise Page.

Do you have some more Jewel Lyrics that are missing here?
Send them to the webmaster!

If you would like to receive Jewel Tabs on a consistent basis or can contribute more by transcribing them,
feel free to subscribe to the Jewel Lyrics mailing list by sending a blank e-mail to JewelLyrics-subscribe@endor.org

TicketsNow 47/47

I take no credit for these guitar tabs.
This Jewel Guitar Tabs Archive has a Copyright Warning.

List All Songs