Jewel Lyrics Archive
Guitar Tabs

Cold Song

Cold Song
    by Jewel Kilcher
       Transcribed by Chris (CleoCrazy@aol.com)


----------3--------3----
----------3--------3----
------------------------
------------------------
-------------2----------
----3-------------------
           G (always played twice)


----------0--------0----
----------3--------3----
------------------------
-------------2----------
----3-------------------
------------------------
           C (always played twice)


----------2--------2----
----------3--------3----
------------------------
-------------0----------
----0-------------------
------------------------
           D (always played twice)


Arrangement:

 Intro        G (x2)
 Verse     G  C  G  D
Pre-chor.     G  C
 Chorus       D  G
 Bridge    C  G  C  D  C  G
 Chorus       D  G
 Intro        G (x2)
 Verse     G  C  G  D
Pre-chor.     G  C
 Chorus       D  G
 Bridge    C  G  C  D  C  G
 Chorus       D  G
              D (x3)
  End         G (strum normal G chord)

Ok. Notes on this song:
      -The chord letters in the arrangement are used to identify 
         the fingerpicking riffs, unless otherwise stated.
      -When I say each is played twice, I mean that for each one 
         letter, you play the riff two times.



E-mail:



For original Jewel tabs created by Ola Svardh, check out http://surf.to/jeweltab.

For hard copies of Piano Sheet Music and Guitar Tabs,
check out the Jewel Merchandise Page.

Do you have some more Jewel Lyrics that are missing here?
Send them to the webmaster!

If you would like to receive Jewel Tabs on a consistent basis or can contribute more by transcribing them,
feel free to subscribe to the Jewel Lyrics mailing list by sending a blank e-mail to JewelLyrics-subscribe@endor.org

Amazon - Tracy Chapman 38/44

I take no credit for these guitar tabs.
This Jewel Guitar Tabs Archive has a Copyright Warning.

List All Songs