Jewel Lyrics Archive
Guitar Tabs

Who Will Save Your Soul

Who Will Save Your Soul
    by Jewel Kilcher


This one's pretty much the same figure over and over.

------------------------------3-------3-2-------
--------0-1-------3-1-------0-------3-----------
------2---------0---------0-------2-------------
----2---------2---------0-------0---------------
--0---------3-----------------------------------
----------------------3-------------------------
  Am        C         G         D

The bass line is basically this:
  A       D C       C G       G D

I think there might be slight variations on the fingerpicking near the end of
certain chorus parts, but it's hard to tell.



-----------------------------------------------------------
Transcribed by Joe Perazzo


      Am
E---------------------------------------------------------B------1--------0-1---------------------------------------G---------------2------------------------------------------D----------2----2-------------------------------------------A--0------------0-------------------------------------------E---------------------------------------------------------
      Csus
E-----------------------------------------
B----1------3-1------------------------------
G-----------0------------------------------
D-------2---2-------------------------------
A--3--------3-------------------------------
E ---------------------------------------------
        G
E-----------------3------------------------
B--------------0-------------------------
G------0-------0-------------------------
D---------0----0--------------------------
A--------------0-------------------------
E---3-------------------------------------
            Dsus
E----------3-2-------------------------------
B-----3----3---------------------------------
G-------2--2---------------------------------
D---0------0---------------------------------
A------------------------------------------
E-------------------------------------------

E-mail:



For original Jewel tabs created by Ola Svardh, check out http://surf.to/jeweltab.

For hard copies of Piano Sheet Music and Guitar Tabs,
check out the Jewel Merchandise Page.

Do you have some more Jewel Lyrics that are missing here?
Send them to the webmaster!

If you would like to receive Jewel Tabs on a consistent basis or can contribute more by transcribing them,
feel free to subscribe to the Jewel Lyrics mailing list by sending a blank e-mail to JewelLyrics-subscribe@endor.org

Amazon - White Stripes 24/50

I take no credit for these guitar tabs.
This Jewel Guitar Tabs Archive has a Copyright Warning.

List All Songs