Jewel Lyrics Archive
Guitar Tabs

Tiny Love Spaces

Tiny Love Spaces
    by Jewel Kilcher
        Transcribed by Michelle Kady and Buster Payne

Open tuning:

1st string:  Eb
2nd string: Bb
3rd string:  G
4th string:  Eb
5th string:  Bb
6th string:  Eb

^ = pull off
/ = slide to
* = chime

Riff:

--------------0----------------------0--------------------
--5^0------------0-----5^0--------------0--------------
--------5/7-------------------5/7------------------------
-----------------------------------------------------------
-----------------------------------------------------------
--0---------------------0---------------------------------



--------------------------5*----------7*------------------
--5^0--------------------5*----------7*------------------
----------5/7\5^0-------5*----------7*------------------
--------------------------5*----------7*------------------
--------------------------5*----------7*------------------
--0-----------------------5*----------7*------------------

get familiar with the riff.  once you get it down then it'll
sound more like Jewel. 

Verse:
I don't care if you leave your name after the beep.

------------------------------------------------------------------
(I'm sorry but I do not know the names of the chords
because of the tuning..so I'm going to mark them 
"chord 1", "chord 2", etc... also I don't know EXACTLY 
what she's playing in this part so you can feel free
to try to figure it out...or make something of your own
up. Strumming it sounds just as good as fingerpicking
but it's up to you.)
------------------------------------------------------------------

Chord 1             Chord 2              Chord 3

----5---------    -------7--------    --------0---------
----5---------    -------7--------    --------0---------
----5---------    -------7--------    --------0---------
----5---------    -------7--------    --------0---------
----5---------    -------7--------    --------0---------
----5---------    -------7--------    --------0---------

Bridge #1:
  (chord1)                                      (chord3)
Don't care if those are promises you intend to keep
        (chord1)           (chord3)        (chord1)          (chord3)
'Cause lovers are just shadows that disappear with the light
           (chord1)            (chord3)         (chord2)   (chord1)
and my happiness don't depend on if you come..... tonight.
Oh-oh-oh-oh

(Continue Riff for 2nd Verse)
And I don't think that you're cheap
I don't expect anything...

(Bridge #1)
Don't gotta leave what time you called on my machine
'Cause being in love just means calling places
when you can't afford the bill
Well, we've all got these tiny love spaces
that we need to fill.
oh-oh-oh-ohhhh

(Continue Riff for 3rd Verse)
Filling up tiny love spaces
getting lost inside of insatiable mazes
looking for heros in worn out places
                   (chorus1)       (chorus3)
looking for a great big love in tiny places.

(Bridge #2)
------0----------------0----------------------------------
--5------5--------5-------5------------------------------
-----------------------------------------------------------
--5----------5----5-----------5--------------------------
-----------------------------------------------------------
-----------------------------------------------------------


------0-----------------0----------------------------------
--4-------4--------4-------4------------------------------
------------------------------------------------------------
--4----------4-----4----------4---------------------------
------------------------------------------------------------
------------------------------------------------------------

(continue to play back and forth from 5th fret to 4th until
Bridge #2 is finished...)

(Bridge #2)
Until you wake up the next morning
Put my high powered columbian crystals in the
coffee machine. Read the newspaper, drink
six cups of Java, listen to Moz

E-mail:



For original Jewel tabs created by Ola Svardh, check out http://surf.to/jeweltab.

For hard copies of Piano Sheet Music and Guitar Tabs,
check out the Jewel Merchandise Page.

Do you have some more Jewel Lyrics that are missing here?
Send them to the webmaster!

If you would like to receive Jewel Tabs on a consistent basis or can contribute more by transcribing them,
feel free to subscribe to the Jewel Lyrics mailing list by sending a blank e-mail to JewelLyrics-subscribe@endor.org

endor.org - John Callahan 2/56

I take no credit for these guitar tabs.
This Jewel Guitar Tabs Archive has a Copyright Warning.

List All Songs