Jewel Lyrics Archive
Guitar Tabs

Studies in Love #12

Studies in Love #12
    by Jewel Kilcher
        Tabbed by Michelle Kady

Pluck bass notes then strum the rest. Alternate back and forth to get
the correct sound. 



        G(1)                                   G(2)

-----------3----------              -----------3--------
-----------3----------              -----------3--------
-----------0----------              -----------0-------- 
-----------0----------              -----------0-------- 
-----------2----------              -----2--------------
-----3----------------              --------------------


        C(1)                                  C(2)

----------------------               ----------------------
--------1-------------               ----------1-----------
--------0-------------               ----------0-----------
--------2-------------               -----2----------------
--3-------------------               ----------------------
----------------------               ----------------------

  
         D(1)                                        D(2)
---------2------------                -----------2----------
---------3------------                -----------3----------
---------2------------                -----------2----------
----------------------                -------0--------------
-----0----------------                ----------------------
---------------------                 ----------------------

    Intro           G(1) G(2) G(1) G(2)
 
    Verse         G(1)  G(2)  C  D
                     G(1)  G(2)  D(1)  D(2)

    Verse        G(1)  G(2)  C  D
                     G(1)  G(2)  D(1)  D(2)

 Pre-Chorus   C(1)  C(2)  D(1)  D(2)
                      G    Em  Em

    Chorus      C(1)  C(2)  D(1)  D(2)
                      G      G

    Verse        G(1)  G(2)  C  D
                     G(1)  G(2)  D(1)  D(2)

    Verse        G(1)  G(2)  C  D
                    G(1)  G(2)  D(1)  D(2)
    
 Pre-chorus    C(1)  C(2)  D(1)  D(2)
                      G    Em    Em
      
                     C(1)  C(2)  D(1)  D(2)

    Bridge       Em   C   Em   C 
                     Em   C   Em   C
                     D   D   D   D

    Verse        G(1)  G(1)  C  D
                    G(1)  G(2)  D(1)  D(2)

    Verse        G(1)  G(1)  C  D
                     G(1)  G(2)  D(1)  D(2)

 Pre-chorus  C(1)  C(2)  D(1)  D(2)
                    G   Em   Em  (x2)
   
                     C(1)  C(2)  D(1)  D(2)
    
     End:         G



E-mail me with questions and/or comments:  JewelWN2BE@aol.com

E-mail:



For original Jewel tabs created by Ola Svardh, check out http://surf.to/jeweltab.

For hard copies of Piano Sheet Music and Guitar Tabs,
check out the Jewel Merchandise Page.

Do you have some more Jewel Lyrics that are missing here?
Send them to the webmaster!

If you would like to receive Jewel Tabs on a consistent basis or can contribute more by transcribing them,
feel free to subscribe to the Jewel Lyrics mailing list by sending a blank e-mail to JewelLyrics-subscribe@endor.org

LinkShare - iTunes 45/53

I take no credit for these guitar tabs.
This Jewel Guitar Tabs Archive has a Copyright Warning.

List All Songs