Jewel Lyrics Archive
Guitar Tabs

She Cries

She Cries
    by Jewel Kilcher
        Tabbed by Scott Joiner


Tune to Eb

Intro:

--------0---------------0---------------0-------------
----2-----2---2-----2-----2---2-----2-----2---2-------
--0---0-----0-----------------------------------------
------------------4---4-----0-----3---3-----3---2~0---
------------------------------------------------------
------------------------------------------------------



--------0---------------0---------------0-------------
----2-----2---2-----2-----2---2-----2-----2---2-------
--0---0-----0-----------------------------------------
------------------4---4-----4-----3---3-----3---2~0---
------------------------------------------------------
------------------------------------------------------


Verses:

--------0---------------0---------------0---------------0---------
----2-----2---2-----2-----2---2-----2-----2---2-----2-----2---2---
--0---0-----0-----------------------------------------------------
------------------4---4-----4-----3---3-----3-----2---2-----0-----
------------------------------------------------------------------
------------------------------------------------------------------

Repeat, Repeat, Reapeat...etc


Chorus:
       <NH>
--------7-----------------------------------------------
----7------------5---5--------3-------------------------
----------------------------------3~4---3~4---3~4-------
--------------------------------------------------------
--------------------------------------------------------
--7---7----7~5-5---5----5~3-3---3-----3-----3------3~7--

E-mail:



For original Jewel tabs created by Ola Svardh, check out http://surf.to/jeweltab.

For hard copies of Piano Sheet Music and Guitar Tabs,
check out the Jewel Merchandise Page.

Do you have some more Jewel Lyrics that are missing here?
Send them to the webmaster!

If you would like to receive Jewel Tabs on a consistent basis or can contribute more by transcribing them,
feel free to subscribe to the Jewel Lyrics mailing list by sending a blank e-mail to JewelLyrics-subscribe@endor.org

Amazon - Sarah McLachlan 22/57

I take no credit for these guitar tabs.
This Jewel Guitar Tabs Archive has a Copyright Warning.

List All Songs